2004N716`31

-----7/16()-----
BLIND HEADZ
CLOUD RED CODE
GATT'Z' COIN
NO CROSS

-----7/17(y)-----
()
DRAGON FLY
Joyride
glad
нش

([)
sROCK'N ROLL BABYLON vol.14t
O`ME؋ERSESSION BAND
PIRANHA

عݻ

[DJ]


-----7/18()-----
sUTERICBUGt
UTERO
dibs
COOKAI
GREEDY MOLE
North9

-----7/19()-----
BLUE IN GREEN
Tikirika
Fundamental
-LOOZ-

-----7/20()-----
SHA-LA

BIGBURN
Jammy Engel
Turbains Drive

-----7/21()-----
FLESH FOR FLANKENSTEIN
V@gi
GRAND NUDE
JIB

-----7/22()-----
KING
E.F.M.
Junk Frer R'x
REALZ
j

-----7/23()-----
Baked Tomato
40%ALCOHOL
Beems
Double Soul

-----7/24(y)-----
Zombie Eat Panda
grkn

گ̨ٽ

uJv

-----7/25()-----
()
sNEW AGE REVOLUTIONt
㏸C
TOP HYPOCRITE
ްݴ

()
sLIVE SCAPE PRESENTSt
Lust Dimension/etc...

-----7/26()-----
ؑ[(FROM J̒c)
[OPENING ACT]
Chris
oR

-----7/27()-----
sɷ Vol.2t
K
߶
HONEY RICH
LiLi
Ȃ܁~2jpJr.

-----7/28()-----

The MongolianChop
ORANGE SUNSHINE
CANDY BLACK

-----7/29()-----
AREA
HANDS CLAP GANG
4megadom
Amploud

-----7/30()-----
s7th ROCK FESTIVAL t
MONKEYSPUNK
RAIN COAT
uJv
GATT'Z' COIN
Samlive
MultiPullOut/etc...

-----7/31(y)-----
s7th ROCK FESTIVAL t
MONKEYSPUNK
everset
Ark
SPOONHEAD
Unlimitgain
BOOZE
THE LONDONBUCK
JUNKiE SQU@D