-----11/1(fri)-----
008
׼޵د
BOL+NUT/etc...

-----11/2(sat)-----
()
air-code
the lime lights
department store

([)
MARY PRESENTS
s`franks party vol.1`t
MARY
۰ޯ
LAMBBETS
Scrumbledogs
CANDY STORE
[DJ]
Tsune(DEMODE)
pen(R.H.K)

-----11/3(sun)-----
()
sNEW AGE REVOLUTIONt
MOSQUITO BOO
۰ްƽ
WILL

()
THE SAMURAI TOP
ުӸ
}(from:)
Burning Soul
fake for

-----11/4(mon)-----
B.B.C.
KING&QUEEN
HOLLY MOUNTAIN
Joyride
Navel Clan
GAZELLE
RED LINE
DICKEY GROOVE STEREO

-----11/5(tue)-----
SPILAL FREE
Noide
؉
Cubik(from:)

-----11/6(wed)-----
Good Luck Charm
Bee&HunnyBread
THE DIRTY DUCK REVOLUTION
Witch
Good&Plenty

-----11/7(thu)-----
Baked Tomato
MARMOTIC EXTACY
hotch potch
BUCHI
DRAGON FLY

-----11/8(fri)-----
ں
Second Shift-Up
cײ޽
Tiger moth Crew

-----11/9(sat)-----
sSTUDIO PENTA PRESENTSt
SESSION2002
THREE CHORD

׽׳
̧Ž̫

-----11/10(sun)-----
()
sNEW AGE REVOLUTIONt
Dice
XiCp[
ROCK
Cockroachi428

()
sܼŲ vol.2t
glad
Hg/etc..

-----11/11(mon)-----
CANDY(from:B)
Solitaire
INSANITY
taRRot
VISHNU

-----11/12(tue)-----
SMOKY CHILD
VICKY&COBRAS
the LAST
R&R FIGHTERS

-----11/13(wed)-----


the green fields
PROPIT
GOD HAND of 3minutes

-----11/14(thu)-----
Pal Scroll
The MongolianChop
AREA
Western Youth

-----11/15(fri)-----
()
Lapis Lazuli
LANDSCAPE
Kazu from Carry
Buzz

([)
sR&R BABYLONt
`The WHO Tribute Night`
SAYBOW,(ex:ٺ),GRICO SESSION BAND
MICHIAKI,PATA&TETSU
[GUEST]
@j
İ
BRICK'S TONE
[DJ]
Y