1`R͋xقł

-----1/4()-----
sN.A.R.t
گ
GAZELLE
[GUEST]L

-----1/5()-----
sN.A.R.t
CRLL:EL
Fealless
Cryin'
[GUEST]
˭۽

-----1/6(y)-----
sN.A.R.t

ONE VOX
Lance D'e Neil
Vledad cruz
[GUEST]


-----1/7()-----
()
sN.A.R.t
LOST IN MUSIC
Lm

()
ްݽ
ް
޸ۺ޲ټޮ
GOD HAND OF 3minutes

-----1/8()-----
rise
G.O.R
THE SNOONERS
L(R)IGHT STAFF
WONDERFULL WORLD
hit mark
EH
{withTHE SWANP

-----1/9()-----
RAY CRIANT
Y's MAN
WEED
SKY SCRAPAR
ިׯ

-----1/10()-----
FREESIA
Cruel
re'veilles
R'LIZE

-----1/11()-----

Geist
Shulla

-----1/12()-----
SUGER MAN
Dogs
׸è
KAIE&THE HAZZ

-----1/13(y)-----
sNEW DISCOVERY 2dayst

couch>>case
SARGEMACHINE
Outsuar
HAPPY SAD

-----1/14()-----
sNEW DISCOVERY 2dayst
AteLieR
BISHOP
Sympa Syrea
EXcellent`Destiny
MAnKInD
NATURA HEARTS FLAVOR/etc...

-----1/15()-----
MIRENIA
Phylia
Beata
Prime A Dees

-----1/16()-----
IRONIC
Xie

-----1/17()-----
Jimmie Guitar and the Peacocks
Sleepin' Johnny Fish(from s)
Peppermint Jet
BLOKOLY'S

-----1/18()-----
Daze
Clench Fists
ClueLneighbor
SHAKE:A:CRAYE

-----1/19()-----
sANSHINdMARUt
VIRUS
RESEARCH
Lapis Lazuli
Squall
ANIMAL LOVER
Switcher

-----1/20(y)-----
sSTUDIO PENTA PRESENTSt
Deone
Muse
MZ4-9
Crime


-----1/21()-----
sCLUB CREATURESt
CHEAP CLAP
MART
JACK OFF MACHINE
ެƶ2000
Ͳ&޼

-----1/22()-----
Óc FY
g u
etre
PASS PORT
G.S.BROTHERS

-----1/23()-----
Cloud egg
CPIZAA
ށE
THE CLEVERS
3point Party!Party!

-----1/24()-----
Third Field
NO EXCUTE
FLAP JACK
Ao-One

-----1/25()-----
STAND UP
MARY

THE CLOVERS(from É)
Ұװϲ

-----1/26()-----
ݸ޽
˭۽
DJݹݼò
JOLT

-----1/27(y)-----
sdCȴےpсt
Az
ɰ
ʼnsP
ʉَqَq
ANTI-KRANKE
POOL
܂

-----1/28()-----
()
sEAST LAND Vol.4t
߲
Ј
SUNްް
JACK IN THE BOX

()

THE STREET JACK
}(from )
R&R FIGHTERS
SROCKS
TRANCE TRACTION

-----1/29()-----
Plastic(from )
Esverk
Noide
Aries

-----1/30()-----
Missing Link
Cilter(from É)


-----1/31()-----
˽
indian
ېV(from )
ZACROW
ͯ
Crystalmermaid